  0
SECTION
  2
HEADER
  9
$ACADVER
  1
AC1015
  9
$ACADMAINTVER
 70
     6
  9
$DWGCODEPAGE
  3
ANSI_1254
  9
$INSBASE
 10
0.0
 20
0.0
 30
0.0
  9
$EXTMIN
 10
0.0
 20
0.0
 30
0.0
  9
$EXTMAX
 10
279.4
 20
215.9
 30
0.0
  9
$LIMMIN
 10
0.0
 20
0.0
  9
$LIMMAX
 10
279.4
 20
215.9
  9
$ORTHOMODE
 70
     0
  9
$REGENMODE
 70
     1
  9
$FILLMODE
 70
     1
  9
$QTEXTMODE
 70
     0
  9
$MIRRTEXT
 70
     1
  9
$LTSCALE
 40
1.0
  9
$ATTMODE
 70
     1
  9
$TEXTSIZE
 40
3.5
  9
$TRACEWID
 40
1.0
  9
$TEXTSTYLE
  7
Standard
  9
$CLAYER
  8
0
  9
$CELTYPE
  6
ByLayer
  9
$CECOLOR
 62
   256
  9
$CELTSCALE
 40
1.0
  9
$DISPSILH
 70
     0
  9
$DIMSCALE
 40
1.0
  9
$DIMASZ
 40
3.5
  9
$DIMEXO
 40
1.0
  9
$DIMDLI
 40
3.75
  9
$DIMRND
 40
0.0
  9
$DIMDLE
 40
0.0
  9
$DIMEXE
 40
1.0
  9
$DIMTP
 40
0.0
  9
$DIMTM
 40
0.0
  9
$DIMTXT
 40
3.5
  9
$DIMCEN
 40
2.5
  9
$DIMTSZ
 40
0.0
  9
$DIMTOL
 70
     0
  9
$DIMLIM
 70
     0
  9
$DIMTIH
 70
     1
  9
$DIMTOH
 70
     1
  9
$DIMSE1
 70
     0
  9
$DIMSE2
 70
     0
  9
$DIMTAD
 70
     1
  9
$DIMZIN
 70
     0
  9
$DIMBLK
  1

  9
$DIMASO
 70
     1
  9
$DIMSHO
 70
     1
  9
$DIMPOST
  1

  9
$DIMAPOST
  1

  9
$DIMALT
 70
     0
  9
$DIMALTD
 70
     3
  9
$DIMALTF
 40
0.0393700787
  9
$DIMLFAC
 40
1.0
  9
$DIMTOFL
 70
     1
  9
$DIMTVP
 40
0.0
  9
$DIMTIX
 70
     0
  9
$DIMSOXD
 70
     0
  9
$DIMSAH
 70
     0
  9
$DIMBLK1
  1

  9
$DIMBLK2
  1

  9
$DIMSTYLE
  2
ISO-25
  9
$DIMCLRD
 70
     0
  9
$DIMCLRE
 70
     0
  9
$DIMCLRT
 70
     0
  9
$DIMTFAC
 40
1.0
  9
$DIMGAP
 40
1.524
  9
$DIMJUST
 70
     0
  9
$DIMSD1
 70
     0
  9
$DIMSD2
 70
     0
  9
$DIMTOLJ
 70
     0
  9
$DIMTZIN
 70
     0
  9
$DIMALTZ
 70
     0
  9
$DIMALTTZ
 70
     0
  9
$DIMUPT
 70
     0
  9
$DIMDEC
 70
     2
  9
$DIMTDEC
 70
     2
  9
$DIMALTU
 70
     2
  9
$DIMALTTD
 70
     3
  9
$DIMTXSTY
  7
Standard
  9
$DIMAUNIT
 70
     0
  9
$DIMADEC
 70
     2
  9
$DIMALTRND
 40
0.0
  9
$DIMAZIN
 70
     0
  9
$DIMDSEP
 70
    44
  9
$DIMATFIT
 70
     3
  9
$DIMFRAC
 70
     0
  9
$DIMLDRBLK
  1

  9
$DIMLUNIT
 70
     2
  9
$DIMLWD
 70
    -2
  9
$DIMLWE
 70
    -2
  9
$DIMTMOVE
 70
     0
  9
$LUNITS
 70
     2
  9
$LUPREC
 70
     2
  9
$SKETCHINC
 40
1.0
  9
$FILLETRAD
 40
10.0
  9
$AUNITS
 70
     0
  9
$AUPREC
 70
     2
  9
$MENU
  1
.
  9
$ELEVATION
 40
0.0
  9
$PELEVATION
 40
0.0
  9
$THICKNESS
 40
0.0
  9
$LIMCHECK
 70
     0
  9
$CHAMFERA
 40
0.0
  9
$CHAMFERB
 40
0.0
  9
$CHAMFERC
 40
0.0
  9
$CHAMFERD
 40
0.0
  9
$SKPOLY
 70
     0
  9
$TDCREATE
 40
2458985.651459074
  9
$TDUCREATE
 40
2458985.526459074
  9
$TDUPDATE
 40
2458985.651459398
  9
$TDUUPDATE
 40
2458985.526459398
  9
$TDINDWG
 40
0.0000000116
  9
$TDUSRTIMER
 40
0.0000000116
  9
$USRTIMER
 70
     1
  9
$ANGBASE
 50
0.0
  9
$ANGDIR
 70
     0
  9
$PDMODE
 70
     0
  9
$PDSIZE
 40
-1.0
  9
$PLINEWID
 40
0.0
  9
$SPLFRAME
 70
     0
  9
$SPLINETYPE
 70
     6
  9
$SPLINESEGS
 70
     8
  9
$HANDSEED
  5
C0
  9
$SURFTAB1
 70
     6
  9
$SURFTAB2
 70
     6
  9
$SURFTYPE
 70
     6
  9
$SURFU
 70
     6
  9
$SURFV
 70
     6
  9
$UCSBASE
  2

  9
$UCSNAME
  2

  9
$UCSORG
 10
0.0
 20
0.0
 30
0.0
  9
$UCSXDIR
 10
1.0
 20
0.0
 30
0.0
  9
$UCSYDIR
 10
0.0
 20
1.0
 30
0.0
  9
$UCSORTHOREF
  2

  9
$UCSORTHOVIEW
 70
     0
  9
$UCSORGTOP
 10
0.0
 20
0.0
 30
0.0
  9
$UCSORGBOTTOM
 10
0.0
 20
0.0
 30
0.0
  9
$UCSORGLEFT
 10
0.0
 20
0.0
 30
0.0
  9
$UCSORGRIGHT
 10
0.0
 20
0.0
 30
0.0
  9
$UCSORGFRONT
 10
0.0
 20
0.0
 30
0.0
  9
$UCSORGBACK
 10
0.0
 20
0.0
 30
0.0
  9
$PUCSBASE
  2

  9
$PUCSNAME
  2

  9
$PUCSORG
 10
0.0
 20
0.0
 30
0.0
  9
$PUCSXDIR
 10
1.0
 20
0.0
 30
0.0
  9
$PUCSYDIR
 10
0.0
 20
1.0
 30
0.0
  9
$PUCSORTHOREF
  2

  9
$PUCSORTHOVIEW
 70
     0
  9
$PUCSORGTOP
 10
0.0
 20
0.0
 30
0.0
  9
$PUCSORGBOTTOM
 10
0.0
 20
0.0
 30
0.0
  9
$PUCSORGLEFT
 10
0.0
 20
0.0
 30
0.0
  9
$PUCSORGRIGHT
 10
0.0
 20
0.0
 30
0.0
  9
$PUCSORGFRONT
 10
0.0
 20
0.0
 30
0.0
  9
$PUCSORGBACK
 10
0.0
 20
0.0
 30
0.0
  9
$USERI1
 70
     0
  9
$USERI2
 70
     0
  9
$USERI3
 70
     0
  9
$USERI4
 70
     0
  9
$USERI5
 70
     0
  9
$USERR1
 40
0.0
  9
$USERR2
 40
0.0
  9
$USERR3
 40
0.0
  9
$USERR4
 40
0.0
  9
$USERR5
 40
0.0
  9
$WORLDVIEW
 70
     1
  9
$SHADEDGE
 70
     3
  9
$SHADEDIF
 70
    70
  9
$TILEMODE
 70
     1
  9
$MAXACTVP
 70
    64
  9
$PINSBASE
 10
0.0
 20
0.0
 30
0.0
  9
$PLIMCHECK
 70
     0
  9
$PEXTMIN
 10
1.0000000000E+20
 20
1.0000000000E+20
 30
1.0000000000E+20
  9
$PEXTMAX
 10
-1.0000000000E+20
 20
-1.0000000000E+20
 30
-1.0000000000E+20
  9
$PLIMMIN
 10
0.0
 20
0.0
  9
$PLIMMAX
 10
420.0
 20
297.0
  9
$UNITMODE
 70
     0
  9
$VISRETAIN
 70
     1
  9
$PLINEGEN
 70
     0
  9
$PSLTSCALE
 70
     1
  9
$TREEDEPTH
 70
  3020
  9
$CMLSTYLE
  2
Standard
  9
$CMLJUST
 70
     0
  9
$CMLSCALE
 40
20.0
  9
$PROXYGRAPHICS
 70
     1
  9
$MEASUREMENT
 70
     1
  9
$CELWEIGHT
370
    -1
  9
$ENDCAPS
280
     0
  9
$JOINSTYLE
280
     0
  9
$LWDISPLAY
290
     1
  9
$INSUNITS
 70
     4
  9
$HYPERLINKBASE
  1

  9
$STYLESHEET
  1

  9
$XEDIT
290
     1
  9
$CEPSNTYPE
380
     0
  9
$PSTYLEMODE
290
     1
  9
$FINGERPRINTGUID
  2
{2a2fe2ff-3c45-4e3d-b95f-993de3b5d1be}
  9
$VERSIONGUID
  2
{FAEB1C32-E019-11D5-929B-00C0DF256EC4}
  9
$EXTNAMES
290
     1
  9
$PSVPSCALE
 40
0.0
  9
$OLESTARTUP
290
     0
  0
ENDSEC
  0
SECTION
  2
CLASSES
  0
CLASS
  1
ACDBDICTIONARYWDFLT
  2
AcDbDictionaryWithDefault
  3
ObjectDBX Classes
 90
        0
280
     0
281
     0
  0
CLASS
  1
VISUALSTYLE
  2
AcDbVisualStyle
  3
ObjectDBX Classes
 90
     4095
280
     0
281
     0
  0
CLASS
  1
MATERIAL
  2
AcDbMaterial
  3
ObjectDBX Classes
 90
     1153
280
     0
281
     0
  0
CLASS
  1
SCALE
  2
AcDbScale
  3
ObjectDBX Classes
 90
     1153
280
     0
281
     0
  0
CLASS
  1
TABLESTYLE
  2
AcDbTableStyle
  3
ObjectDBX Classes
 90
     4095
280
     0
281
     0
  0
CLASS
  1
MLEADERSTYLE
  2
AcDbMLeaderStyle
  3
ACDB_MLEADERSTYLE_CLASS
 90
     4095
280
     0
281
     0
  0
CLASS
  1
SUN
  2
AcDbSun
  3
SCENEOE
 90
     1153
280
     0
281
     0
  0
CLASS
  1
ACDBPLACEHOLDER
  2
AcDbPlaceHolder
  3
ObjectDBX Classes
 90
        0
280
     0
281
     0
  0
CLASS
  1
LAYOUT
  2
AcDbLayout
  3
ObjectDBX Classes
 90
        0
280
     0
281
     0
  0
ENDSEC
  0
SECTION
  2
TABLES
  0
TABLE
  2
VPORT
  5
8
330
0
100
AcDbSymbolTable
 70
     1
  0
VPORT
  5
29
330
8
100
AcDbSymbolTableRecord
100
AcDbViewportTableRecord
  2
*Active
 70
     0
 10
0.0
 20
0.0
 11
1.0
 21
1.0
 12
139.7
 22
107.95
 13
0.0
 23
0.0
 14
10.0
 24
10.0
 15
10.0
 25
10.0
 16
0.0
 26
0.0
 36
1.0
 17
0.0
 27
0.0
 37
0.0
 40
215.9
 41
1.2941176471
 42
50.0
 43
0.0
 44
0.0
 50
0.0
 51
0.0
 71
     0
 72
  2000
 73
     1
 74
     3
 75
     0
 76
     0
 77
     0
 78
     0
281
     0
 65
     1
110
0.0
120
0.0
130
0.0
111
1.0
121
0.0
131
0.0
112
0.0
122
1.0
132
0.0
 79
     0
146
0.0
  0
ENDTAB
  0
TABLE
  2
LTYPE
  5
5
330
0
100
AcDbSymbolTable
 70
     6
  0
LTYPE
  5
14
330
5
100
AcDbSymbolTableRecord
100
AcDbLinetypeTableRecord
  2
ByBlock
 70
     0
  3

 72
    65
 73
     0
 40
0.0
  0
LTYPE
  5
15
330
5
100
AcDbSymbolTableRecord
100
AcDbLinetypeTableRecord
  2
ByLayer
 70
     0
  3

 72
    65
 73
     0
 40
0.0
  0
LTYPE
  5
16
330
5
100
AcDbSymbolTableRecord
100
AcDbLinetypeTableRecord
  2
Continuous
 70
     0
  3
Solid line
 72
    65
 73
     0
 40
0.0
  0
LTYPE
  5
6E
330
5
100
AcDbSymbolTableRecord
100
AcDbLinetypeTableRecord
  2
HIDDEN
 70
     0
  3
Hidden __ __ __ __ __ __ __ __ __ __ __ __ __ __
 72
    65
 73
     2
 40
1.905
 49
1.27
 74
     0
 49
-0.635
 74
     0
  0
LTYPE
  5
6F
330
5
100
AcDbSymbolTableRecord
100
AcDbLinetypeTableRecord
  2
PHANTOM
 70
     0
  3
Phantom ______  __  __  ______  __  __  ______
 72
    65
 73
     6
 40
12.7
 49
6.35
 74
     0
 49
-1.27
 74
     0
 49
1.27
 74
     0
 49
-1.27
 74
     0
 49
1.27
 74
     0
 49
-1.27
 74
     0
  0
LTYPE
  5
70
330
5
100
AcDbSymbolTableRecord
100
AcDbLinetypeTableRecord
  2
CENTER
 70
     0
  3
Center ____ _ ____ _ ____ _ ____ _ ____ _ ____
 72
    65
 73
     4
 40
10.16
 49
6.35
 74
     0
 49
-1.27
 74
     0
 49
1.27
 74
     0
 49
-1.27
 74
     0
  0
LTYPE
  5
71
330
5
100
AcDbSymbolTableRecord
100
AcDbLinetypeTableRecord
  2
CENTERX2
 70
     0
  3
Center (2x) ________  __  ________  __  _____
 72
    65
 73
     4
 40
20.32
 49
12.7
 74
     0
 49
-2.54
 74
     0
 49
2.54
 74
     0
 49
-2.54
 74
     0
  0
LTYPE
  5
72
330
5
100
AcDbSymbolTableRecord
100
AcDbLinetypeTableRecord
  2
DOT2
 70
     0
  3
Dot (.5x) ........................................
 72
    65
 73
     2
 40
0.635
 49
0.0
 74
     0
 49
-0.635
 74
     0
  0
ENDTAB
  0
TABLE
  2
LAYER
  5
2
330
0
100
AcDbSymbolTable
 70
    17
  0
LAYER
  5
10
330
2
100
AcDbSymbolTableRecord
100
AcDbLayerTableRecord
  2
0
 70
     0
 62
     7
  6
Continuous
370
    -3
390
F
  0
LAYER
  5
73
330
2
100
AcDbSymbolTableRecord
100
AcDbLayerTableRecord
  2
FORMAT
 70
     0
 62
     7
  6
Continuous
370
    -3
390
F
  0
LAYER
  5
74
330
2
100
AcDbSymbolTableRecord
100
AcDbLayerTableRecord
  2
YARDIMCI_GEOMETRI
 70
     0
 62
    -6
  6
Continuous
290
     0
370
    -3
390
F
  0
LAYER
  5
75
330
2
100
AcDbSymbolTableRecord
100
AcDbLayerTableRecord
  2
SAYFA_CERCEVESI
 70
     0
 62
     7
  6
Continuous
370
    25
390
F
  0
LAYER
  5
76
330
2
100
AcDbSymbolTableRecord
100
AcDbLayerTableRecord
  2
ANTET
 70
     0
 62
     7
  6
Continuous
370
    -3
390
F
  0
LAYER
  5
77
330
2
100
AcDbSymbolTableRecord
100
AcDbLayerTableRecord
  2
OLCU
 70
     0
 62
   150
  6
Continuous
370
    -3
390
F
  0
LAYER
  5
78
330
2
100
AcDbSymbolTableRecord
100
AcDbLayerTableRecord
  2
METIN
 70
     0
 62
    96
  6
Continuous
370
    -3
390
F
  0
LAYER
  5
79
330
2
100
AcDbSymbolTableRecord
100
AcDbLayerTableRecord
  2
BALON
 70
     0
 62
     5
  6
Continuous
370
    -3
390
F
  0
LAYER
  5
7A
330
2
100
AcDbSymbolTableRecord
100
AcDbLayerTableRecord
  2
VURGU
 70
     0
 62
     7
  6
Continuous
370
    -3
390
F
  0
LAYER
  5
7B
330
2
100
AcDbSymbolTableRecord
100
AcDbLayerTableRecord
  2
SILIK
 70
     0
 62
     7
  6
Continuous
370
    -3
390
F
  0
LAYER
  5
7C
330
2
100
AcDbSymbolTableRecord
100
AcDbLayerTableRecord
  2
MODEL
 70
     0
 62
     7
  6
Continuous
370
    -3
390
F
  0
LAYER
  5
7D
330
2
100
AcDbSymbolTableRecord
100
AcDbLayerTableRecord
  2
DETAYLANDıRMA
 70
     0
 62
   190
  6
Continuous
370
    -3
390
F
  0
LAYER
  5
7E
330
2
100
AcDbSymbolTableRecord
100
AcDbLayerTableRecord
  2
TOLERANS
 70
     0
 62
   230
  6
Continuous
370
    -3
390
F
  0
LAYER
  5
7F
330
2
100
AcDbSymbolTableRecord
100
AcDbLayerTableRecord
  2
MERKEZ_CIZGILERI
 70
     0
 62
    30
  6
Continuous
370
    -3
390
F
  0
LAYER
  5
80
330
2
100
AcDbSymbolTableRecord
100
AcDbLayerTableRecord
  2
KESIT-DETAY_CIZGILERI
 70
     0
 62
     7
  6
Continuous
370
    -3
390
F
  0
LAYER
  5
81
330
2
100
AcDbSymbolTableRecord
100
AcDbLayerTableRecord
  2
\U+041E\U+0421\U+0415\U+0412\U+042B\U+0415
 70
     0
 62
     7
  6
Continuous
370
    -3
390
F
  0
LAYER
  5
82
330
2
100
AcDbSymbolTableRecord
100
AcDbLayerTableRecord
  2
\U+0412\U+041E\U+0414\U+042F\U+041D\U+042B\U+0415_\U+0417\U+041D\U+0410\U+041A\U+0418
 70
     0
 62
    11
  6
Continuous
370
    -3
390
F
  0
ENDTAB
  0
TABLE
  2
STYLE
  5
3
330
0
100
AcDbSymbolTable
 70
     1
  0
STYLE
  5
11
330
3
100
AcDbSymbolTableRecord
100
AcDbTextStyleTableRecord
  2
Standard
 70
     0
 40
0.0
 41
1.0
 50
0.0
 71
     0
 42
3.5
  3
txt
  4

  0
ENDTAB
  0
TABLE
  2
VIEW
  5
6
330
0
100
AcDbSymbolTable
 70
     0
  0
ENDTAB
  0
TABLE
  2
UCS
  5
7
330
0
100
AcDbSymbolTable
 70
     0
  0
ENDTAB
  0
TABLE
  2
APPID
  5
9
330
0
100
AcDbSymbolTable
 70
     1
  0
APPID
  5
12
330
9
100
AcDbSymbolTableRecord
100
AcDbRegAppTableRecord
  2
ACAD
 70
     0
  0
ENDTAB
  0
TABLE
  2
DIMSTYLE
  5
A
330
0
100
AcDbSymbolTable
 70
     1
100
AcDbDimStyleTable
  0
DIMSTYLE
105
27
330
A
100
AcDbSymbolTableRecord
100
AcDbDimStyleTableRecord
  2
ISO-25
 70
     0
 41
2.5
 42
0.625
 43
3.75
 44
1.25
 73
     0
 74
     0
 77
     1
 78
     8
140
2.5
141
2.5
143
0.0393700787
147
0.625
171
     3
172
     1
178
     0
271
     2
272
     2
274
     3
278
    44
283
     0
284
     8
340
11
  0
ENDTAB
  0
TABLE
  2
BLOCK_RECORD
  5
1
330
0
100
AcDbSymbolTable
 70
     1
  0
BLOCK_RECORD
  5
1F
330
1
100
AcDbSymbolTableRecord
100
AcDbBlockTableRecord
  2
*Model_Space
340
22
  0
BLOCK_RECORD
  5
1B
330
1
100
AcDbSymbolTableRecord
100
AcDbBlockTableRecord
  2
*Paper_Space
340
1E
  0
BLOCK_RECORD
  5
23
330
1
100
AcDbSymbolTableRecord
100
AcDbBlockTableRecord
  2
*Paper_Space0
340
26
  0
ENDTAB
  0
ENDSEC
  0
SECTION
  2
BLOCKS
  0
BLOCK
  5
20
330
1F
100
AcDbEntity
  8
0
100
AcDbBlockBegin
  2
*Model_Space
 70
     0
 10
0.0
 20
0.0
 30
0.0
  3
*Model_Space
  1

  0
ENDBLK
  5
21
330
1F
100
AcDbEntity
  8
0
100
AcDbBlockEnd
  0
BLOCK
  5
1C
330
1B
100
AcDbEntity
 67
     1
  8
0
100
AcDbBlockBegin
  2
*Paper_Space
 70
     0
 10
0.0
 20
0.0
 30
0.0
  3
*Paper_Space
  1

  0
ENDBLK
  5
1D
330
1B
100
AcDbEntity
 67
     1
  8
0
100
AcDbBlockEnd
  0
BLOCK
  5
24
330
23
100
AcDbEntity
  8
0
100
AcDbBlockBegin
  2
*Paper_Space0
 70
     0
 10
0.0
 20
0.0
 30
0.0
  3
*Paper_Space0
  1

  0
ENDBLK
  5
25
330
23
100
AcDbEntity
  8
0
100
AcDbBlockEnd
  0
ENDSEC
  0
SECTION
  2
ENTITIES
  0
CIRCLE
  5
83
330
1F
100
AcDbEntity
  8
0
  6
Continuous
 62
     7
370
    25
100
AcDbCircle
 10
142.6640511068
 20
91.5941489382
 30
0.0
 40
225.0
  0
CIRCLE
  5
84
330
1F
100
AcDbEntity
  8
0
  6
Continuous
 62
     7
370
    25
100
AcDbCircle
 10
142.6640511068
 20
91.5941489382
 30
0.0
 40
198.3
  0
CIRCLE
  5
85
330
1F
100
AcDbEntity
  8
0
  6
Continuous
 62
     7
370
    25
100
AcDbCircle
 10
142.6640511068
 20
91.5941489382
 30
0.0
 40
232.5
  0
CIRCLE
  5
86
330
1F
100
AcDbEntity
  8
0
  6
Continuous
 62
     7
370
    25
100
AcDbCircle
 10
142.6640511068
 20
91.5941489382
 30
0.0
 40
272.5
  0
LINE
  5
87
330
1F
100
AcDbEntity
  8
0
  6
Continuous
 62
     7
370
    25
100
AcDbLine
 10
415.1640511068
 20
567.6183898792
 30
0.0
 11
415.1640511068
 21
612.6183898792
 31
0.0
  0
LINE
  5
88
330
1F
100
AcDbEntity
  8
0
  6
Continuous
 62
     7
370
    25
100
AcDbLine
 10
-129.8359488932
 20
612.6183898792
 30
0.0
 11
-129.8359488932
 21
567.6183898792
 31
0.0
  0
LINE
  5
89
330
1F
100
AcDbEntity
  8
0
  6
Continuous
 62
     7
370
    25
100
AcDbLine
 10
375.1640511068
 20
612.6183898792
 30
0.0
 11
367.6640511068
 21
707.6183898792
 31
0.0
  0
LINE
  5
8A
330
1F
100
AcDbEntity
  8
0
  6
Continuous
 62
     7
370
    25
100
AcDbLine
 10
-82.3359488932
 20
707.6183898792
 30
0.0
 11
-89.8359488932
 21
612.6183898792
 31
0.0
  0
LINE
  5
8B
330
1F
100
AcDbEntity
  8
0
  6
Continuous
 62
     7
370
    25
100
AcDbLine
 10
367.6640511068
 20
707.6183898792
 30
0.0
 11
367.6640511068
 21
902.6183898792
 31
0.0
  0
LINE
  5
8C
330
1F
100
AcDbEntity
  8
0
  6
Continuous
 62
     7
370
    25
100
AcDbLine
 10
-82.3359488932
 20
902.6183898792
 30
0.0
 11
-82.3359488932
 21
707.6183898792
 31
0.0
  0
LINE
  5
8D
330
1F
100
AcDbEntity
  8
0
  6
Continuous
 62
     7
370
    25
100
AcDbLine
 10
415.1640511068
 20
567.6183898792
 30
0.0
 11
-129.8359488932
 21
567.6183898792
 31
0.0
  0
LINE
  5
8E
330
1F
100
AcDbEntity
  8
0
  6
Continuous
 62
     7
370
    25
100
AcDbLine
 10
415.1640511068
 20
612.6183898792
 30
0.0
 11
-129.8359488932
 21
612.6183898792
 31
0.0
  0
LINE
  5
8F
330
1F
100
AcDbEntity
  8
0
  6
Continuous
 62
     7
370
    25
100
AcDbLine
 10
367.6640511068
 20
707.6183898792
 30
0.0
 11
-82.3359488932
 21
707.6183898792
 31
0.0
  0
LINE
  5
90
330
1F
100
AcDbEntity
  8
0
  6
Continuous
 62
     7
370
    25
100
AcDbLine
 10
367.6640511068
 20
902.6183898792
 30
0.0
 11
-82.3359488932
 21
902.6183898792
 31
0.0
  0
LINE
  5
91
330
1F
100
AcDbEntity
  8
0
  6
Continuous
 62
     7
370
    25
100
AcDbLine
 10
-387.631476369
 20
364.0941489382
 30
0.0
 11
-432.631476369
 21
364.0941489382
 31
0.0
  0
LINE
  5
92
330
1F
100
AcDbEntity
  8
0
  6
Continuous
 62
     7
370
    25
100
AcDbLine
 10
-432.631476369
 20
-180.9058510618
 30
0.0
 11
-387.631476369
 21
-180.9058510618
 31
0.0
  0
LINE
  5
93
330
1F
100
AcDbEntity
  8
0
  6
Continuous
 62
     7
370
    25
100
AcDbLine
 10
-432.631476369
 20
324.0941489382
 30
0.0
 11
-527.631476369
 21
316.5941489382
 31
0.0
  0
LINE
  5
94
330
1F
100
AcDbEntity
  8
0
  6
Continuous
 62
     7
370
    25
100
AcDbLine
 10
-527.631476369
 20
-133.4058510618
 30
0.0
 11
-432.631476369
 21
-140.9058510618
 31
0.0
  0
LINE
  5
95
330
1F
100
AcDbEntity
  8
0
  6
Continuous
 62
     7
370
    25
100
AcDbLine
 10
-527.631476369
 20
316.5941489382
 30
0.0
 11
-722.631476369
 21
316.5941489382
 31
0.0
  0
LINE
  5
96
330
1F
100
AcDbEntity
  8
0
  6
Continuous
 62
     7
370
    25
100
AcDbLine
 10
-722.631476369
 20
-133.4058510618
 30
0.0
 11
-527.631476369
 21
-133.4058510618
 31
0.0
  0
LINE
  5
97
330
1F
100
AcDbEntity
  8
0
  6
Continuous
 62
     7
370
    25
100
AcDbLine
 10
-387.631476369
 20
364.0941489382
 30
0.0
 11
-387.631476369
 21
-180.9058510618
 31
0.0
  0
LINE
  5
98
330
1F
100
AcDbEntity
  8
0
  6
Continuous
 62
     7
370
    25
100
AcDbLine
 10
-432.631476369
 20
364.0941489382
 30
0.0
 11
-432.631476369
 21
-180.9058510618
 31
0.0
  0
LINE
  5
99
330
1F
100
AcDbEntity
  8
0
  6
Continuous
 62
     7
370
    25
100
AcDbLine
 10
-527.631476369
 20
316.5941489382
 30
0.0
 11
-527.631476369
 21
-133.4058510618
 31
0.0
  0
LINE
  5
9A
330
1F
100
AcDbEntity
  8
0
  6
Continuous
 62
     7
370
    25
100
AcDbLine
 10
-722.631476369
 20
316.5941489382
 30
0.0
 11
-722.631476369
 21
-133.4058510618
 31
0.0
  0
LINE
  5
9B
330
1F
100
AcDbEntity
  8
0
  6
Continuous
 62
     7
370
    25
100
AcDbLine
 10
-129.8359488932
 20
-426.7753459311
 30
0.0
 11
-129.8359488932
 21
-471.7753459311
 31
0.0
  0
LINE
  5
9C
330
1F
100
AcDbEntity
  8
0
  6
Continuous
 62
     7
370
    25
100
AcDbLine
 10
415.1640511068
 20
-471.7753459311
 30
0.0
 11
415.1640511068
 21
-426.7753459311
 31
0.0
  0
LINE
  5
9D
330
1F
100
AcDbEntity
  8
0
  6
Continuous
 62
     7
370
    25
100
AcDbLine
 10
-89.8359488932
 20
-471.7753459311
 30
0.0
 11
-82.3359488932
 21
-566.7753459311
 31
0.0
  0
LINE
  5
9E
330
1F
100
AcDbEntity
  8
0
  6
Continuous
 62
     7
370
    25
100
AcDbLine
 10
367.6640511068
 20
-566.7753459311
 30
0.0
 11
375.1640511068
 21
-471.7753459311
 31
0.0
  0
LINE
  5
9F
330
1F
100
AcDbEntity
  8
0
  6
Continuous
 62
     7
370
    25
100
AcDbLine
 10
-82.3359488932
 20
-566.7753459311
 30
0.0
 11
-82.3359488932
 21
-761.7753459311
 31
0.0
  0
LINE
  5
A0
330
1F
100
AcDbEntity
  8
0
  6
Continuous
 62
     7
370
    25
100
AcDbLine
 10
367.6640511068
 20
-761.7753459311
 30
0.0
 11
367.6640511068
 21
-566.7753459311
 31
0.0
  0
LINE
  5
A1
330
1F
100
AcDbEntity
  8
0
  6
Continuous
 62
     7
370
    25
100
AcDbLine
 10
-129.8359488932
 20
-426.7753459311
 30
0.0
 11
415.1640511068
 21
-426.7753459311
 31
0.0
  0
LINE
  5
A2
330
1F
100
AcDbEntity
  8
0
  6
Continuous
 62
     7
370
    25
100
AcDbLine
 10
-129.8359488932
 20
-471.7753459311
 30
0.0
 11
415.1640511068
 21
-471.7753459311
 31
0.0
  0
LINE
  5
A3
330
1F
100
AcDbEntity
  8
0
  6
Continuous
 62
     7
370
    25
100
AcDbLine
 10
-82.3359488932
 20
-566.7753459311
 30
0.0
 11
367.6640511068
 21
-566.7753459311
 31
0.0
  0
LINE
  5
A4
330
1F
100
AcDbEntity
  8
0
  6
Continuous
 62
     7
370
    25
100
AcDbLine
 10
-82.3359488932
 20
-761.7753459311
 30
0.0
 11
367.6640511068
 21
-761.7753459311
 31
0.0
  0
LINE
  5
A5
330
1F
100
AcDbEntity
  8
0
  6
Continuous
 62
     7
370
    25
100
AcDbLine
 10
678.1938574291
 20
-180.9058510618
 30
0.0
 11
723.1938574291
 21
-180.9058510618
 31
0.0
  0
LINE
  5
A6
330
1F
100
AcDbEntity
  8
0
  6
Continuous
 62
     7
370
    25
100
AcDbLine
 10
723.1938574291
 20
364.0941489382
 30
0.0
 11
678.1938574291
 21
364.0941489382
 31
0.0
  0
LINE
  5
A7
330
1F
100
AcDbEntity
  8
0
  6
Continuous
 62
     7
370
    25
100
AcDbLine
 10
723.1938574291
 20
-140.9058510618
 30
0.0
 11
818.1938574291
 21
-133.4058510618
 31
0.0
  0
LINE
  5
A8
330
1F
100
AcDbEntity
  8
0
  6
Continuous
 62
     7
370
    25
100
AcDbLine
 10
818.1938574291
 20
316.5941489382
 30
0.0
 11
723.1938574291
 21
324.0941489382
 31
0.0
  0
LINE
  5
A9
330
1F
100
AcDbEntity
  8
0
  6
Continuous
 62
     7
370
    25
100
AcDbLine
 10
818.1938574291
 20
-133.4058510618
 30
0.0
 11
1013.1938574291
 21
-133.4058510618
 31
0.0
  0
LINE
  5
AA
330
1F
100
AcDbEntity
  8
0
  6
Continuous
 62
     7
370
    25
100
AcDbLine
 10
1013.1938574291
 20
316.5941489382
 30
0.0
 11
818.1938574291
 21
316.5941489382
 31
0.0
  0
LINE
  5
AB
330
1F
100
AcDbEntity
  8
0
  6
Continuous
 62
     7
370
    25
100
AcDbLine
 10
678.1938574291
 20
91.5941489382
 30
0.0
 11
678.1938574291
 21
364.0941489382
 31
0.0
  0
LINE
  5
AC
330
1F
100
AcDbEntity
  8
0
  6
Continuous
 62
     7
370
    25
100
AcDbLine
 10
678.1938574291
 20
-180.9058510618
 30
0.0
 11
678.1938574291
 21
91.5941489382
 31
0.0
  0
LINE
  5
AD
330
1F
100
AcDbEntity
  8
0
  6
Continuous
 62
     7
370
    25
100
AcDbLine
 10
723.1938574291
 20
91.5941489382
 30
0.0
 11
723.1938574291
 21
364.0941489382
 31
0.0
  0
LINE
  5
AE
330
1F
100
AcDbEntity
  8
0
  6
Continuous
 62
     7
370
    25
100
AcDbLine
 10
723.1938574291
 20
-180.9058510618
 30
0.0
 11
723.1938574291
 21
91.5941489382
 31
0.0
  0
LINE
  5
AF
330
1F
100
AcDbEntity
  8
0
  6
Continuous
 62
     7
370
    25
100
AcDbLine
 10
818.1938574291
 20
91.5941489382
 30
0.0
 11
818.1938574291
 21
316.5941489382
 31
0.0
  0
LINE
  5
B0
330
1F
100
AcDbEntity
  8
0
  6
Continuous
 62
     7
370
    25
100
AcDbLine
 10
818.1938574291
 20
-133.4058510618
 30
0.0
 11
818.1938574291
 21
91.5941489382
 31
0.0
  0
LINE
  5
B1
330
1F
100
AcDbEntity
  8
0
  6
Continuous
 62
     7
370
    25
100
AcDbLine
 10
1013.1938574291
 20
91.5941489382
 30
0.0
 11
1013.1938574291
 21
316.5941489382
 31
0.0
  0
LINE
  5
B2
330
1F
100
AcDbEntity
  8
0
  6
Continuous
 62
     7
370
    25
100
AcDbLine
 10
1013.1938574291
 20
-133.4058510618
 30
0.0
 11
1013.1938574291
 21
91.5941489382
 31
0.0
  0
LINE
  5
B3
330
1F
100
AcDbEntity
  8
0
  6
Continuous
 62
     7
370
    25
100
AcDbLine
 10
983.7757819289
 20
-362.3308418391
 30
0.0
 11
845.8899595975
 21
-282.7310509364
 31
0.0
  0
LINE
  5
B4
330
1F
100
AcDbEntity
  8
0
  6
Continuous
 62
     7
370
    25
100
AcDbLine
 10
620.9082447544
 20
-672.4530390077
 30
0.0
 11
758.7940670858
 21
-752.0528299105
 31
0.0
  0
LINE
  5
B5
330
1F
100
AcDbEntity
  8
0
  6
Continuous
 62
     7
370
    25
100
AcDbLine
 10
1048.0287075686
 20
-391.1819490442
 30
0.0
 11
980.6327081879
 21
-360.5163839903
 31
0.0
  0
LINE
  5
B6
330
1F
100
AcDbEntity
  8
0
  6
Continuous
 62
     7
370
    25
100
AcDbLine
 10
755.6509933448
 20
-750.2383720616
 30
0.0
 11
815.9101893483
 21
-793.2665826868
 31
0.0
  0
LINE
  5
B7
330
1F
100
AcDbEntity
  8
0
  6
Continuous
 62
     7
370
    25
100
AcDbLine
 10
1106.5188011951
 20
-378.3420887037
 30
0.0
 11
1074.6989960417
 21
-359.9729061876
 31
0.0
  0
LINE
  5
B8
330
1F
100
AcDbEntity
  8
0
  6
Continuous
 62
     7
370
    25
100
AcDbLine
 10
802.2211413984
 20
-831.9695361851
 30
0.0
 11
834.0409465518
 21
-850.3387187011
 31
0.0
  0
LWPOLYLINE
  5
B9
330
1F
100
AcDbEntity
  8
0
  6
Continuous
 62
     7
370
    25
100
AcDbPolyline
 90
      160
 70
   128
 43
0.0
 10
574.300076409
 20
-569.4379575521
 10
574.4242835302
 20
-562.1080344149
 10
574.7967109594
 20
-554.6461495929
 10
575.4167771952
 20
-547.0639539333
 10
576.2835140778
 20
-539.3732861347
 10
577.3955683005
 20
-531.5861542619
 10
578.7512035226
 20
-523.7147169969
 10
580.3483030806
 20
-515.7712646547
 10
582.1843732932
 20
-507.7681999931
 10
584.2565473547
 20
-499.7180188475
 10
586.5615898113
 20
-491.6332906202
 10
589.0959016127
 20
-483.5266386547
 10
591.855525732
 20
-475.4107205256
 10
594.8361533437
 20
-467.2982082756
 10
598.0331305516
 20
-459.2017686298
 10
601.4414656552
 20
-451.1340432173
 10
605.055836944
 20
-443.1076288339
 10
608.8706010062
 20
-435.1350577727
 10
612.8798015405
 20
-427.2287782571
 10
617.0771786563
 20
-419.401135004
 10
621.4561786474
 20
-411.6643499491
 10
626.0099642251
 20
-404.0305031639
 10
630.731425194
 20
-396.511513994
 10
635.613189553
 20
-389.1191224483
 10
640.6476350067
 20
-381.8648708688
 10
645.8269008661
 20
-374.7600859082
 10
651.1429003225
 20
-367.8158608447
 10
656.5873330736
 20
-361.0430382616
 10
662.1516982841
 20
-354.4521931172
 10
667.8273078582
 20
-348.0536162339
 10
673.6053000052
 20
-341.85729823
 10
679.4766530764
 20
-335.8729139204
 10
685.4321996509
 20
-330.1098072108
 10
691.4626408497
 20
-324.5769765084
 10
697.5585608547
 20
-319.2830606714
 10
703.7104416104
 20
-314.2363255209
 10
709.9086776853
 20
-309.4446509349
 10
716.1435912696
 20
-304.9155185443
 10
722.4054472858
 20
-300.6560000519
 10
728.6844685891
 20
-296.67274619
 10
734.9708512331
 20
-292.9719763368
 10
741.2547797776
 20
-289.559468805
 10
747.5264426139
 20
-286.4405518201
 10
753.7760472852
 20
-283.6200952006
 10
759.9938357756
 20
-281.1025027549
 10
766.1700997465
 20
-278.8917054047
 10
772.2951956948
 20
-276.9911550476
 10
778.3595600103
 20
-275.4038191673
 10
784.3537239081
 20
-274.1321762004
 10
790.2683282126
 20
-273.1782116664
 10
796.0941379716
 20
-272.5434150678
 10
801.8220568744
 20
-272.2287775641
 10
807.4431414558
 20
-272.2347904243
 10
812.9486150594
 20
-272.5614442601
 10
818.3298815418
 20
-273.2082290403
 10
823.578538694
 20
-274.1741348873
 10
828.6863913611
 20
-275.4576536537
 10
833.6454642374
 20
-277.0567812774
 10
838.4480143193
 20
-278.9690209104
 10
843.086542995
 20
-281.1913868175
 10
847.5538077524
 20
-283.7204090381
 10
851.8428334881
 20
-286.5521388043
 10
855.9469233975
 20
-289.6821547061
 10
859.8596694314
 20
-293.1055695954
 10
863.5749623012
 20
-296.8170382161
 10
867.0870010183
 20
-300.8107655505
 10
870.390301951
 20
-305.0805158676
 10
873.4797073871
 20
-309.619622459
 10
876.3503935868
 20
-314.4209980487
 10
878.9978783142
 20
-319.4771458585
 10
881.4180278364
 20
-324.780171314
 10
883.607063377
 20
-330.3217943703
 10
885.5615670169
 20
-336.0933624409
 10
887.2784870308
 20
-342.0858639074
 10
888.7551426518
 20
-348.28994219
 10
889.9892282575
 20
-354.6959103571
 10
890.9788169696
 20
-361.2937662497
 10
891.722363663
 20
-368.0732080991
 10
892.2187073776
 20
-375.0236506116
 10
892.4670731318
 20
-382.1342414963
 10
892.4670731318
 20
-389.3938784096
 10
892.2187073776
 20
-396.7912262902
 10
891.722363663
 20
-404.3147350576
 10
890.9788169696
 20
-411.9526576458
 10
889.9892282575
 20
-419.6930683455
 10
888.7551426518
 20
-427.5238814242
 10
887.2784870308
 20
-435.4328699968
 10
885.5615670169
 20
-443.4076851166
 10
883.607063377
 20
-451.4358750563
 10
881.4180278364
 20
-459.5049047505
 10
878.9978783142
 20
-467.602175367
 10
876.3503935868
 20
-475.715043979
 10
873.4797073871
 20
-483.8308433053
 10
870.390301951
 20
-491.9369014886
 10
867.0870010183
 20
-500.0205618812
 10
863.5749623012
 20
-508.0692028071
 10
859.8596694314
 20
-516.070257269
 10
855.9469233975
 20
-524.0112325699
 10
851.8428334881
 20
-531.8797298197
 10
847.5538077524
 20
-539.663463294
 10
843.0865429949
 20
-547.3502796169
 10
838.4480143193
 20
-554.9281767372
 10
833.6454642374
 20
-562.385322668
 10
828.6863913611
 20
-569.7100739613
 10
823.578538694
 20
-576.8909938875
 10
818.3298815418
 20
-583.9168702924
 10
812.9486150594
 20
-590.776733104
 10
807.4431414558
 20
-597.459871461
 10
801.8220568744
 20
-603.9558504361
 10
796.0941379716
 20
-610.2545273292
 10
790.2683282126
 20
-616.3460675041
 10
784.3537239081
 20
-622.220959744
 10
778.3595600103
 20
-627.8700311019
 10
772.2951956948
 20
-633.2844612235
 10
766.1700997465
 20
-638.455796119
 10
759.9938357756
 20
-643.3759613627
 10
753.7760472852
 20
-648.0372747007
 10
747.5264426139
 20
-652.4324580455
 10
741.2547797776
 20
-656.5546488402
 10
734.9708512331
 20
-660.397410773
 10
728.6844685891
 20
-663.9547438275
 10
722.4054472858
 20
-667.2210936502
 10
716.1435912696
 20
-670.1913602238
 10
709.9086776853
 20
-672.8609058295
 10
703.7104416104
 20
-675.2255622888
 10
697.5585608547
 20
-677.2816374714
 10
691.4626408497
 20
-679.0259210598
 10
685.4321996509
 20
-680.4556895623
 10
679.4766530764
 20
-681.5687105652
 10
673.6053000052
 20
-682.3632462183
 10
667.8273078581
 20
-682.8380559484
 10
662.1516982841
 20
-682.9923983965
 10
656.5873330736
 20
-682.8260325753
 10
651.1429003225
 20
-682.3392182451
 10
645.8269008661
 20
-681.5327155089
 10
640.6476350067
 20
-680.4077836248
 10
635.613189553
 20
-678.9661790405
 10
630.7314251939
 20
-677.2101526504
 10
626.0099642251
 20
-675.1424462812
 10
621.4561786474
 20
-672.766288411
 10
617.0771786563
 20
-670.0853891283
 10
612.8798015405
 20
-667.103934339
 10
608.8706010062
 20
-663.8265792309
 10
605.055836944
 20
-660.2584410049
 10
601.4414656552
 20
-656.4050908853
 10
598.0331305516
 20
-652.272545421
 10
594.8361533437
 20
-647.8672570909
 10
591.855525732
 20
-643.1961042301
 10
589.0959016127
 20
-638.2663802891
 10
586.5615898113
 20
-633.0857824466
 10
584.2565473547
 20
-627.6623995914
 10
582.1843732932
 20
-622.0046996918
 10
580.3483030806
 20
-616.1215165747
 10
578.7512035226
 20
-610.0220361321
 10
577.3955683005
 20
-603.7157819787
 10
576.2835140778
 20
-597.2126005818
 10
575.4167771952
 20
-590.5226458871
 10
574.7967109594
 20
-583.6563634647
 10
574.4242835302
 20
-576.6244741996
 10
574.300076409
 20
-569.4379575521
  0
LWPOLYLINE
  5
BA
330
1F
100
AcDbEntity
  8
0
  6
Continuous
 62
     7
370
    25
100
AcDbPolyline
 90
      150
 70
   128
 43
0.0
 10
593.1798274667
 20
-558.5389092593
 10
593.3044798434
 20
-551.6409614458
 10
593.6782153461
 20
-544.6113573611
 10
594.3003694868
 20
-537.4625953847
 10
595.1698360981
 20
-530.2073857545
 10
596.2850693
 20
-522.8586279685
 10
597.6440862487
 20
-515.4293878498
 10
599.2444706617
 20
-507.9328743163
 10
601.0833771137
 20
-500.3824158955
 10
603.1575360963
 20
-492.7914370269
 10
605.4632598305
 20
-485.1734341938
 10
607.9964488236
 20
-477.5419519274
 10
610.7525991581
 20
-469.9105587246
 10
613.7268104992
 20
-462.292822924
 10
616.9137948077
 20
-454.7022885819
 10
620.3078857418
 20
-447.1524513913
 10
623.9030487316
 20
-439.6567346873
 10
627.6928917087
 20
-432.2284655806
 10
631.6706764704
 20
-424.8808512626
 10
635.8293306607
 20
-417.6269555234
 10
640.1614603441
 20
-410.479675525
 10
644.6593631521
 20
-403.4517188703
 10
649.3150419778
 20
-396.5555810099
 10
654.120219194
 20
-389.803523025
 10
659.066351371
 20
-383.2075498286
 10
664.1446444663
 20
-376.7793888201
 10
669.3460694602
 20
-370.5304690353
 10
674.6613784087
 20
-364.4719008255
 10
680.0811208866
 20
-358.614456104
 10
685.5956607894
 20
-352.9685491935
 10
691.1951934666
 20
-347.5442183107
 10
696.8697631532
 20
-342.3511077179
 10
702.6092806717
 20
-337.3984505761
 10
708.4035413691
 20
-332.6950525291
 10
714.2422432615
 20
-328.249276047
 10
720.1150053499
 20
-324.069025558
 10
726.0113860777
 20
-320.161733395
 10
731.9209018952
 20
-316.5343465809
 10
737.8330458988
 20
-313.1933144771
 10
743.7373065122
 20
-310.1445773166
 10
749.6231861756
 20
-307.3935556431
 10
755.4802200098
 20
-304.9451406724
 10
761.2979944222
 20
-302.8036855972
 10
767.0661656224
 20
-300.9729978465
 10
772.7744780123
 20
-299.4563323161
 10
778.4127824209
 20
-298.2563855822
 10
783.9710541488
 20
-297.3752911061
 10
789.4394107915
 20
-296.8146154418
 10
794.8081298107
 20
-296.5753554501
 10
800.0676658196
 20
-296.6579365265
 10
805.2086675554
 20
-297.0622118449
 10
810.2219945045
 20
-297.7874626185
 10
815.0987331545
 20
-298.8323993779
 10
819.8302128421
 20
-300.1951642637
 10
824.408021169
 20
-301.8733343297
 10
828.8240189592
 20
-303.8639258507
 10
833.0703547297
 20
-306.1633996276
 10
837.1394786504
 20
-308.76766728
 10
841.0241559676
 20
-311.672098515
 10
844.7174798666
 20
-314.8715293599
 10
848.2128837525
 20
-318.3602713434
 10
851.5041529247
 20
-322.1321216096
 10
854.5854356266
 20
-326.1803739463
 10
857.4512534501
 20
-330.4978307086
 10
860.0965110757
 20
-335.076815616
 10
862.5165053318
 20
-339.9091874004
 10
864.706933557
 20
-344.986354281
 10
866.6639012498
 20
-350.2992892406
 10
868.3839289931
 20
-355.8385460745
 10
869.8639586403
 20
-361.5942761863
 10
871.1013587528
 20
-367.5562460979
 10
872.0939292782
 20
-373.7138556444
 10
872.8399054624
 20
-380.0561568207
 10
873.337960987
 20
-386.5718732467
 10
873.5872103274
 20
-393.2494202164
 10
873.5872103274
 20
-400.0769252951
 10
873.337960987
 20
-407.0422494278
 10
872.8399054624
 20
-414.1330085223
 10
872.0939292782
 20
-421.3365954679
 10
871.1013587528
 20
-428.6402025498
 10
869.8639586403
 20
-436.0308442211
 10
868.3839289931
 20
-443.4953801906
 10
866.6639012498
 20
-451.0205387858
 10
864.706933557
 20
-458.5929405494
 10
862.5165053318
 20
-466.1991220273
 10
860.0965110757
 20
-473.8255597064
 10
857.4512534501
 20
-481.4586940588
 10
854.5854356266
 20
-489.0849536503
 10
851.5041529247
 20
-496.6907792696
 10
848.2128837525
 20
-504.2626480363
 10
844.7174798666
 20
-511.787097444
 10
841.0241559676
 20
-519.2507492963
 10
837.1394786504
 20
-526.6403334925
 10
833.0703547296
 20
-533.9427116217
 10
828.8240189592
 20
-541.144900322
 10
824.408021169
 20
-548.2340943647
 10
819.830212842
 20
-555.1976894216
 10
815.0987331545
 20
-562.0233044746
 10
810.2219945045
 20
-568.6988038294
 10
805.2086675554
 20
-575.2123186918
 10
800.0676658196
 20
-581.5522682699
 10
794.8081298107
 20
-587.7073803648
 10
789.4394107915
 20
-593.6667114118
 10
783.9710541488
 20
-599.4196659378
 10
778.4127824209
 20
-604.9560153996
 10
772.7744780123
 20
-610.2659163699
 10
767.0661656224
 20
-615.3399280385
 10
761.2979944222
 20
-620.1690289978
 10
755.4802200098
 20
-624.7446332826
 10
749.6231861756
 20
-629.0586056354
 10
743.7373065122
 20
-633.1032759708
 10
737.8330458988
 20
-636.8714530126
 10
731.9209018952
 20
-640.3564370795
 10
726.0113860777
 20
-643.5520319969
 10
720.1150053499
 20
-646.4525561138
 10
714.2422432615
 20
-649.0528524042
 10
708.4035413691
 20
-651.348297636
 10
702.6092806717
 20
-653.3348105915
 10
696.8697631532
 20
-655.0088593231
 10
691.1951934666
 20
-656.3674674333
 10
685.5956607894
 20
-657.4082193663
 10
680.0811208865
 20
-658.1292647034
 10
674.6613784087
 20
-658.5293214521
 10
669.3460694602
 20
-658.6076783261
 10
664.1446444663
 20
-658.3641960099
 10
659.066351371
 20
-657.799307406
 10
654.120219194
 20
-656.9140168658
 10
649.3150419778
 20
-655.7098984036
 10
644.6593631521
 20
-654.1890928981
 10
640.1614603441
 20
-652.3543042859
 10
635.8293306607
 20
-650.2087947543
 10
631.6706764704
 20
-647.7563789408
 10
627.6928917087
 20
-645.0014171513
 10
623.9030487316
 20
-641.9488076074
 10
620.3078857418
 20
-638.6039777374
 10
616.9137948077
 20
-634.9728745267
 10
613.7268104992
 20
-631.0619539444
 10
610.7525991581
 20
-626.8781694646
 10
607.9964488236
 20
-622.4289597032
 10
605.4632598305
 20
-617.722235193
 10
603.1575360963
 20
-612.7663643184
 10
601.0833771137
 20
-607.5701584369
 10
599.2444706617
 20
-602.1428562129
 10
597.6440862487
 20
-596.4941071918
 10
596.2850693
 20
-590.6339546432
 10
595.1698360981
 20
-584.5728177044
 10
594.3003694868
 20
-578.3214728557
 10
593.6782153461
 20
-571.8910347602
 10
593.3044798434
 20
-565.2929365021
 10
593.1798274667
 20
-558.5389092593
  0
LWPOLYLINE
  5
BB
330
1F
100
AcDbEntity
  8
0
  6
Continuous
 62
     7
370
    25
100
AcDbPolyline
 90
       82
 70
   128
 43
0.0
 10
983.7757819289
 20
-362.3308418391
 10
985.4396300838
 20
-363.3201999408
 10
989.7286558195
 20
-366.151929707
 10
993.8327457289
 20
-369.2819456088
 10
997.7454917627
 20
-372.7053604981
 10
1001.4607846326
 20
-376.4168291188
 10
1004.9728233497
 20
-380.4105564532
 10
1008.2761242824
 20
-384.6803067703
 10
1011.3655297185
 20
-389.2194133618
 10
1014.2362159182
 20
-394.0207889514
 10
1016.8837006456
 20
-399.0769367613
 10
1019.3038501677
 20
-404.3799622167
 10
1021.4928857083
 20
-409.921585273
 10
1023.4473893483
 20
-415.6931533436
 10
1025.1643093622
 20
-421.6856548101
 10
1026.6409649832
 20
-427.8897330927
 10
1027.8750505889
 20
-434.2957012598
 10
1028.864639301
 20
-440.8935571524
 10
1029.6081859944
 20
-447.6729990018
 10
1030.104529709
 20
-454.6234415143
 10
1030.3528954632
 20
-461.734032399
 10
1030.3528954632
 20
-468.9936693123
 10
1030.104529709
 20
-476.3910171929
 10
1029.6081859944
 20
-483.9145259603
 10
1028.864639301
 20
-491.5524485485
 10
1027.8750505889
 20
-499.2928592482
 10
1026.6409649832
 20
-507.1236723269
 10
1025.1643093622
 20
-515.0326608996
 10
1023.4473893483
 20
-523.0074760193
 10
1021.4928857083
 20
-531.035665959
 10
1019.3038501677
 20
-539.1046956532
 10
1016.8837006456
 20
-547.2019662697
 10
1014.2362159182
 20
-555.3148348817
 10
1011.3655297185
 20
-563.430634208
 10
1008.2761242824
 20
-571.5366923913
 10
1004.9728233497
 20
-579.6203527839
 10
1001.4607846326
 20
-587.6689937099
 10
997.7454917627
 20
-595.6700481717
 10
993.8327457289
 20
-603.6110234726
 10
989.7286558195
 20
-611.4795207225
 10
985.4396300838
 20
-619.2632541967
 10
980.9723653263
 20
-626.9500705196
 10
976.3338366507
 20
-634.5279676399
 10
971.5312865688
 20
-641.9851135707
 10
966.5722136925
 20
-649.3098648641
 10
961.4643610254
 20
-656.4907847902
 10
956.2157038732
 20
-663.5166611951
 10
950.8344373908
 20
-670.3765240067
 10
945.3289637872
 20
-677.0596623637
 10
939.7078792058
 20
-683.5556413388
 10
933.9799603029
 20
-689.8543182319
 10
928.154150544
 20
-695.9458584069
 10
922.2395462394
 20
-701.8207506467
 10
916.2453823417
 20
-707.4698220046
 10
910.1810180262
 20
-712.8842521262
 10
904.0559220779
 20
-718.0555870217
 10
897.879658107
 20
-722.9757522654
 10
891.6618696166
 20
-727.6370656034
 10
885.4122649453
 20
-732.0322489482
 10
879.1406021089
 20
-736.1544397429
 10
872.8566735645
 20
-739.9972016757
 10
866.5702909205
 20
-743.5545347302
 10
860.2912696172
 20
-746.8208845529
 10
854.029413601
 20
-749.7911511265
 10
847.7945000167
 20
-752.4606967322
 10
841.5962639418
 20
-754.8253531916
 10
835.444383186
 20
-756.8814283741
 10
829.3484631811
 20
-758.6257119625
 10
823.3180219823
 20
-760.0554804651
 10
817.3624754078
 20
-761.1685014679
 10
811.4911223366
 20
-761.963037121
 10
805.7131301895
 20
-762.4378468511
 10
800.0375206154
 20
-762.5921892992
 10
794.473155405
 20
-762.425823478
 10
789.0287226538
 20
-761.9390091479
 10
783.7127231975
 20
-761.1325064116
 10
778.5334573381
 20
-760.0075745275
 10
773.4990118844
 20
-758.5659699432
 10
768.6172475253
 20
-756.8099435531
 10
763.8957865565
 20
-754.7422371839
 10
759.3420009787
 20
-752.3660793137
 10
758.7940670858
 20
-752.0528299105
  0
ARC
  5
BC
330
1F
100
AcDbEntity
  8
0
  6
Continuous
 62
     7
370
    25
100
AcDbCircle
 10
1121.1549224597
 20
-701.4387153115
 30
0.0
 40
339.6330809823323
100
AcDbArc
 50
142.1288816629
 51
157.8764948698
  0
LWPOLYLINE
  5
BD
330
1F
100
AcDbEntity
  8
0
  6
Continuous
 62
     7
370
    25
100
AcDbPolyline
 90
       86
 70
   128
 43
0.0
 10
1048.0287075686
 20
-391.1819490442
 10
1048.3076711602
 20
-391.3095399668
 10
1052.996391199
 20
-393.659459536
 10
1057.5106913115
 20
-396.3174665466
 10
1061.8436969634
 20
-399.2795132923
 10
1065.9888097018
 20
-402.5410890646
 10
1069.9397172037
 20
-406.0972270215
 10
1073.6904028887
 20
-409.9425117516
 10
1077.2351550812
 20
-414.0710875205
 10
1080.5685757083
 20
-418.4766671883
 10
1083.6855885203
 20
-423.1525417839
 10
1086.5814468207
 20
-428.0915907215
 10
1089.2517406951
 20
-433.2862926443
 10
1091.6924037264
 20
-438.7287368783
 10
1093.8997191873
 20
-444.4106354784
 10
1095.8703257006
 20
-450.3233358505
 10
1097.6012223575
 20
-456.4578339271
 10
1099.0897732879
 20
-462.8047878796
 10
1100.3337116744
 20
-469.3545323441
 10
1101.331143204
 20
-476.09709314
 10
1102.0805489529
 20
-483.0222024596
 10
1102.5807876998
 20
-490.1193145036
 10
1102.8310976637
 20
-497.3776215411
 10
1102.8310976637
 20
-504.7860703677
 10
1102.5807876998
 20
-512.3333791378
 10
1102.0805489529
 20
-520.0080545453
 10
1101.331143204
 20
-527.7984093253
 10
1100.3337116744
 20
-535.6925800525
 10
1099.0897732879
 20
-543.6785452072
 10
1097.6012223575
 20
-551.7441434816
 10
1095.8703257006
 20
-559.8770923001
 10
1093.8997191873
 20
-568.0650065231
 10
1091.6924037264
 20
-576.2954173079
 10
1089.2517406951
 20
-584.5557910964
 10
1086.5814468207
 20
-592.8335487019
 10
1083.6855885203
 20
-601.1160844651
 10
1080.5685757083
 20
-609.3907854502
 10
1077.2351550812
 20
-617.6450506524
 10
1073.6904028887
 20
-625.8663101875
 10
1069.9397172037
 20
-634.0420444333
 10
1065.9888097018
 20
-642.1598030951
 10
1061.8436969634
 20
-650.2072241656
 10
1057.5106913115
 20
-658.1720527498
 10
1052.996391199
 20
-666.0421597276
 10
1048.3076711602
 20
-673.8055602244
 10
1043.4516713425
 20
-681.4504318617
 10
1038.4357866324
 20
-688.965132761
 10
1033.2676553951
 20
-696.3382192724
 10
1027.9551478419
 20
-703.5584634015
 10
1022.5063540456
 20
-710.6148699073
 10
1016.9295716202
 20
-717.4966930467
 10
1011.2332930856
 20
-724.1934529383
 10
1005.4261929343
 20
-730.6949515214
 10
999.517114422
 20
-736.991288086
 10
993.5150561005
 20
-743.0728743502
 10
987.4291581147
 20
-748.9304490612
 10
981.2686882832
 20
-754.555092099
 10
975.0430279854
 20
-759.93823806
 10
968.7616578751
 20
-765.0716893009
 10
962.4341434428
 20
-769.9476284222
 10
956.0701204493
 20
-774.5586301729
 10
949.6792802518
 20
-778.897672758
 10
943.2713550457
 20
-782.9581485313
 10
936.8561030442
 20
-786.733874058
 10
930.4432936178
 20
-790.2190995309
 10
924.0426924176
 20
-793.4085175266
 10
917.6640465033
 20
-796.2972710875
 10
911.3170695004
 20
-798.8809611184
 10
905.0114268082
 20
-801.1556530856
 10
898.7567208801
 20
-803.1178830085
 10
892.5624766017
 20
-804.7646627346
 10
886.4381267853
 20
-806.09348449
 10
880.3929978053
 20
-807.1023246983
 10
874.436295396
 20
-807.7896470623
 10
868.5770906328
 20
-808.1544049034
 10
862.8243061178
 20
-808.1960427556
 10
857.1867023931
 20
-807.9144972113
 10
851.6728645992
 20
-807.310197018
 10
846.2911894014
 20
-806.3840624252
 10
841.0498722035
 20
-805.137503783
 10
835.956894667
 20
-803.5724193946
 10
831.0200125565
 20
-801.6911926255
 10
826.2467439291
 20
-799.4966882737
 10
821.6443576857
 20
-796.9922482073
 10
817.2198625012
 20
-794.1816862755
 10
815.9101893483
 20
-793.2665826868
  0
LWPOLYLINE
  5
BE
330
1F
100
AcDbEntity
  8
0
  6
Continuous
 62
     7
370
    25
100
AcDbPolyline
 90
       90
 70
   128
 43
0.0
 10
1106.5188011951
 20
-378.3420887037
 10
1108.3519347516
 20
-379.4291984391
 10
1113.0875165216
 20
-382.5187397224
 10
1117.6390259932
 20
-385.9070881685
 10
1122.0005964858
 20
-389.5898763564
 10
1126.1666061413
 20
-393.5623573464
 10
1130.1316851702
 20
-397.8194107983
 10
1133.8907227733
 20
-402.3555495716
 10
1137.4388737287
 20
-407.1649267977
 10
1140.7715646378
 20
-412.2413434169
 10
1143.8844998193
 20
-417.5782561683
 10
1146.7736668473
 20
-423.1687860236
 10
1149.4353417219
 20
-429.0057270542
 10
1151.8660936701
 20
-435.0815557192
 10
1154.0627895675
 20
-441.3884405626
 10
1156.0225979772
 20
-447.9182523083
 10
1157.7429927986
 20
-454.6625743375
 10
1159.2217565242
 20
-461.6127135382
 10
1160.4569830975
 20
-468.7597115095
 10
1161.4470803698
 20
-476.094356109
 10
1162.1907721527
 20
-483.6071933267
 10
1162.6870998625
 20
-491.2885394706
 10
1162.9354237562
 20
-499.1284936488
 10
1162.9354237562
 20
-507.1169505311
 10
1162.6870998625
 20
-515.2436133743
 10
1162.1907721527
 20
-523.4980072943
 10
1161.4470803698
 20
-531.8694927676
 10
1160.4569830975
 20
-540.3472793453
 10
1159.2217565242
 20
-548.9204395614
 10
1157.7429927986
 20
-557.5779230178
 10
1156.0225979772
 20
-566.3085706277
 10
1154.0627895675
 20
-575.1011289992
 10
1151.8660936701
 20
-583.9442649403
 10
1149.4353417219
 20
-592.8265800669
 10
1146.7736668473
 20
-601.7366254949
 10
1143.8844998193
 20
-610.662916597
 10
1140.7715646377
 20
-619.593947806
 10
1137.4388737287
 20
-628.5182074452
 10
1133.8907227733
 20
-637.4241925657
 10
1130.1316851702
 20
-646.3004237739
 10
1126.1666061413
 20
-655.1354600276
 10
1122.0005964858
 20
-663.9179133827
 10
1117.6390259932
 20
-672.6364636722
 10
1113.0875165216
 20
-681.279873097
 10
1108.3519347516
 20
-689.8370007111
 10
1103.4383846241
 20
-698.2968167816
 10
1098.3531994728
 20
-706.6484170057
 10
1093.102933861
 20
-714.8810365656
 10
1087.6943551327
 20
-722.984064004
 10
1082.1344346903
 20
-730.9470549016
 10
1076.4303390081
 20
-738.7597453398
 10
1070.589420396
 20
-746.4120651299
 10
1064.6192075216
 20
-753.8941507937
 10
1058.5273957072
 20
-761.1963582766
 10
1052.32183701
 20
-768.3092753783
 10
1046.0105301019
 20
-775.2237338851
 10
1039.6016099589
 20
-781.9308213869
 10
1033.1033373761
 20
-788.4218927651
 10
1026.5240883196
 20
-794.6885813357
 10
1019.8723431302
 20
-800.7228096333
 10
1013.1566755931
 20
-806.5167998231
 10
1006.385741886
 20
-812.0630837257
 10
999.5682694224
 20
-817.3545124433
 10
992.7130456018
 20
-822.3842655747
 10
985.8289064837
 20
-827.1458600057
 10
978.9247253978
 20
-831.6331582665
 10
972.0094015071
 20
-835.8403764417
 10
965.0918483371
 20
-839.762091626
 10
958.1809822866
 20
-843.393248914
 10
951.2857111353
 20
-846.7291679157
 10
944.4149225616
 20
-849.7655487892
 10
937.5774726871
 20
-852.4984777831
 10
930.7821746613
 20
-854.9244322812
 10
924.037787302
 20
-857.040285343
 10
917.3530038058
 20
-858.8433097337
 10
910.7364405423
 20
-860.3311814403
 10
904.1966259488
 20
-861.5019826664
 10
897.7419895369
 20
-862.3542043048
 10
891.380851028
 20
-862.8867478818
 10
885.1214096286
 20
-863.0989269742
 10
878.9717334627
 20
-862.990468093
 10
872.9397491722
 20
-862.5615110367
 10
867.0332316996
 20
-861.8126087105
 10
861.2597942665
 20
-860.7447264142
 10
855.6268785608
 20
-859.3592405975
 10
850.1417451446
 20
-857.6579370863
 10
844.8114640953
 20
-855.6430087801
 10
839.6429058933
 20
-853.3170528264
 10
834.6427325656
 20
-850.6830672724
 10
834.0409465518
 20
-850.3387187011
  0
LWPOLYLINE
  5
BF
330
1F
100
AcDbEntity
  8
0
  6
Continuous
 62
     7
370
    25
100
AcDbPolyline
 90
      123
 70
   128
 43
0.0
 10
974.0823845548
 20
-356.7349626467
 10
974.5659367326
 20
-356.5615932875
 10
981.3368704397
 20
-354.2903235331
 10
988.0525379769
 20
-352.3305690276
 10
994.7042831662
 20
-350.6848558018
 10
1001.2835322227
 20
-349.3553051021
 10
1007.7818048055
 20
-348.3436306567
 10
1014.1907249485
 20
-347.651136466
 10
1020.5020318566
 20
-347.2787151222
 10
1026.7075905538
 20
-347.226846659
 10
1032.7994023682
 20
-347.4955979322
 10
1038.7696152426
 20
-348.0846225342
 10
1044.6105338547
 20
-348.9931612402
 10
1050.3146295369
 20
-350.2200429866
 10
1055.8745499793
 20
-351.763686381
 10
1061.2831287076
 20
-353.6221017401
 10
1066.5333943194
 20
-355.7928936542
 10
1071.6185794707
 20
-358.2732640753
 10
1076.5321295982
 20
-361.0600159231
 10
1081.2677113682
 20
-364.1495572064
 10
1085.8192208398
 20
-367.5379056525
 10
1090.1807913324
 20
-371.2206938404
 10
1094.3468009879
 20
-375.1931748304
 10
1098.3118800168
 20
-379.4502282823
 10
1102.0709176199
 20
-383.9863670555
 10
1105.6190685753
 20
-388.7957442817
 10
1108.9517594844
 20
-393.8721609009
 10
1112.064694666
 20
-399.2090736523
 10
1114.9538616939
 20
-404.7996035076
 10
1117.6155365685
 20
-410.6365445382
 10
1120.0462885167
 20
-416.7123732032
 10
1122.2429844142
 20
-423.0192580466
 10
1124.2027928238
 20
-429.5490697923
 10
1125.9231876452
 20
-436.2933918215
 10
1127.4019513708
 20
-443.2435310222
 10
1128.6371779441
 20
-450.3905289935
 10
1129.6272752165
 20
-457.725173593
 10
1130.3709669993
 20
-465.2380108107
 10
1130.8672947091
 20
-472.9193569546
 10
1131.1156186028
 20
-480.7593111328
 10
1131.1156186028
 20
-488.7477680151
 10
1130.8672947091
 20
-496.8744308583
 10
1130.3709669993
 20
-505.1288247782
 10
1129.6272752165
 20
-513.5003102515
 10
1128.6371779441
 20
-521.9780968293
 10
1127.4019513708
 20
-530.5512570454
 10
1125.9231876452
 20
-539.2087405018
 10
1124.2027928238
 20
-547.9393881117
 10
1122.2429844142
 20
-556.7319464832
 10
1120.0462885167
 20
-565.5750824243
 10
1117.6155365685
 20
-574.4573975509
 10
1114.9538616939
 20
-583.3674429789
 10
1112.064694666
 20
-592.2937340809
 10
1108.9517594844
 20
-601.22476529
 10
1105.6190685753
 20
-610.1490249291
 10
1102.0709176199
 20
-619.0550100497
 10
1098.3118800168
 20
-627.9312412579
 10
1094.3468009879
 20
-636.7662775116
 10
1090.1807913324
 20
-645.5487308667
 10
1085.8192208398
 20
-654.2672811562
 10
1081.2677113682
 20
-662.910690581
 10
1076.5321295982
 20
-671.4678181951
 10
1071.6185794707
 20
-679.9276342656
 10
1066.5333943194
 20
-688.2792344897
 10
1061.2831287076
 20
-696.5118540496
 10
1055.8745499793
 20
-704.614881488
 10
1050.3146295369
 20
-712.5778723856
 10
1044.6105338547
 20
-720.3905628238
 10
1038.7696152426
 20
-728.0428826139
 10
1032.7994023682
 20
-735.5249682777
 10
1026.7075905538
 20
-742.8271757606
 10
1020.5020318566
 20
-749.9400928623
 10
1014.1907249485
 20
-756.8545513691
 10
1007.7818048055
 20
-763.5616388709
 10
1001.2835322227
 20
-770.0527102491
 10
994.7042831662
 20
-776.3193988197
 10
988.0525379769
 20
-782.3536271173
 10
981.3368704397
 20
-788.1476173071
 10
974.5659367326
 20
-793.6939012096
 10
967.748464269
 20
-798.9853299273
 10
960.8932404484
 20
-804.0150830586
 10
954.0091013303
 20
-808.7766774897
 10
947.1049202445
 20
-813.2639757505
 10
940.1895963537
 20
-817.4711939257
 10
933.2720431837
 20
-821.39290911
 10
926.3611771332
 20
-825.024066398
 10
919.4659059819
 20
-828.3599853997
 10
912.5951174082
 20
-831.3963662732
 10
905.7576675337
 20
-834.1292952671
 10
898.9623695079
 20
-836.5552497652
 10
892.2179821486
 20
-838.6711028269
 10
885.5331986524
 20
-840.4741272177
 10
878.9166353889
 20
-841.9619989243
 10
872.3768207954
 20
-843.1328001504
 10
865.9221843836
 20
-843.9850217887
 10
859.5610458746
 20
-844.5175653658
 10
853.3016044752
 20
-844.7297444582
 10
847.1519283093
 20
-844.621285577
 10
841.1199440188
 20
-844.1923285206
 10
835.2134265462
 20
-843.4434261945
 10
829.4399891131
 20
-842.3755438982
 10
823.8070734074
 20
-840.9900580815
 10
818.3219399912
 20
-839.2887545703
 10
812.9916589419
 20
-837.2738262641
 10
807.8231007399
 20
-834.9478703104
 10
802.8229274122
 20
-832.3138847564
 10
797.9975839458
 20
-829.3752646849
 10
793.3532899803
 20
-826.1357978382
 10
788.896031791
 20
-822.599659736
 10
784.6315545729
 20
-818.7714082929
 10
780.5653550355
 20
-814.6559779441
 10
776.7026743178
 20
-810.2586732848
 10
773.0484912324
 20
-805.5851622326
 10
769.6075158487
 20
-800.6414687223
 10
766.3841834212
 20
-795.4339649411
 10
763.3826486729
 20
-789.9693631152
 10
760.6067804402
 20
-784.2547068578
 10
758.0601566861
 20
-778.2973620908
 10
755.746059888
 20
-772.1050075496
 10
753.6674728075
 20
-765.6856248866
 10
751.8270746448
 20
-759.0474883825
 10
750.2272375862
 20
-752.1991542813
 10
749.1006697117
 20
-746.456950718
  0
ENDSEC
  0
SECTION
  2
OBJECTS
  0
DICTIONARY
  5
C
330
0
100
AcDbDictionary
281
     1
  3
ACAD_GROUP
350
D
  3
ACAD_LAYOUT
350
1A
  3
ACAD_MLINESTYLE
350
17
  3
ACAD_PLOTSETTINGS
350
19
  3
ACAD_PLOTSTYLENAME
350
E
  3
ACAD_SCALELIST
350
47
  0
DICTIONARY
  5
D
102
{ACAD_REACTORS
330
C
102
}
330
C
100
AcDbDictionary
281
     1
  0
DICTIONARY
  5
1A
102
{ACAD_REACTORS
330
C
102
}
330
C
100
AcDbDictionary
281
     1
  3
Layout1
350
1E
  3
Layout2
350
26
  3
Model
350
22
  0
DICTIONARY
  5
17
102
{ACAD_REACTORS
330
C
102
}
330
C
100
AcDbDictionary
281
     1
  3
Standard
350
18
  0
DICTIONARY
  5
19
102
{ACAD_REACTORS
330
C
102
}
330
C
100
AcDbDictionary
281
     1
  0
ACDBDICTIONARYWDFLT
  5
E
102
{ACAD_REACTORS
330
C
102
}
330
C
100
AcDbDictionary
281
     1
  3
Normal
350
F
100
AcDbDictionaryWithDefault
340
F
  0
DICTIONARY
  5
47
102
{ACAD_REACTORS
330
C
102
}
330
C
100
AcDbDictionary
281
     1
  3
A0
350
48
  3
A1
350
49
  3
A2
350
4A
  3
A3
350
4B
  3
A4
350
4C
  3
A5
350
4D
  3
A6
350
4E
  3
A7
350
4F
  3
A8
350
50
  3
A9
350
51
  3
B0
350
52
  3
B1
350
53
  3
B2
350
54
  3
B3
350
55
  3
B4
350
56
  3
B5
350
57
  3
B6
350
58
  3
B7
350
59
  3
B8
350
5A
  3
B9
350
5B
  3
C0
350
5C
  3
C1
350
5D
  3
C2
350
5E
  3
C3
350
5F
  3
C4
350
60
  3
C5
350
61
  3
C6
350
62
  3
C7
350
63
  3
C8
350
64
  3
C9
350
65
  3
D0
350
66
  3
D1
350
67
  3
D2
350
68
  0
LAYOUT
  5
1E
102
{ACAD_REACTORS
330
1A
102
}
330
1A
100
AcDbPlotSettings
  1

  2
none_device
  4

  6

 40
0.0
 41
0.0
 42
0.0
 43
0.0
 44
0.0
 45
0.0
 46
0.0
 47
0.0
 48
0.0
 49
0.0
140
0.0
141
0.0
142
1.0
143
1.0
 70
   688
 72
     1
 73
     0
 74
     5
  7

 75
    16
147
1.0
148
0.0
149
0.0
100
AcDbLayout
  1
Layout1
 70
     1
 71
     1
 10
0.0
 20
0.0
 11
420.0
 21
297.0
 12
0.0
 22
0.0
 32
0.0
 14
1.0000000000E+20
 24
1.0000000000E+20
 34
1.0000000000E+20
 15
-1.0000000000E+20
 25
-1.0000000000E+20
 35
-1.0000000000E+20
146
0.0
 13
0.0
 23
0.0
 33
0.0
 16
1.0
 26
0.0
 36
0.0
 17
0.0
 27
1.0
 37
0.0
 76
     0
330
1B
  0
LAYOUT
  5
26
102
{ACAD_REACTORS
330
1A
102
}
330
1A
100
AcDbPlotSettings
  1

  2
none_device
  4

  6

 40
0.0
 41
0.0
 42
0.0
 43
0.0
 44
0.0
 45
0.0
 46
0.0
 47
0.0
 48
0.0
 49
0.0
140
0.0
141
0.0
142
1.0
143
1.0
 70
   688
 72
     1
 73
     0
 74
     5
  7

 75
    16
147
1.0
148
0.0
149
0.0
100
AcDbLayout
  1
Layout2
 70
     1
 71
     2
 10
0.0
 20
0.0
 11
0.0
 21
0.0
 12
0.0
 22
0.0
 32
0.0
 14
0.0
 24
0.0
 34
0.0
 15
0.0
 25
0.0
 35
0.0
146
0.0
 13
0.0
 23
0.0
 33
0.0
 16
1.0
 26
0.0
 36
0.0
 17
0.0
 27
1.0
 37
0.0
 76
     0
330
23
  0
LAYOUT
  5
22
102
{ACAD_REACTORS
330
1A
102
}
330
1A
100
AcDbPlotSettings
  1

  2
none_device
  4
Letter_(8.50_x_11.00_Inches)
  6

 40
6.35
 41
6.35
 42
6.35000508
 43
6.35000508
 44
215.9
 45
279.4
 46
0.0
 47
0.0
 48
0.0
 49
0.0
140
0.0
141
0.0
142
1.0
143
1.0
 70
  1712
 72
     1
 73
     0
 74
     0
  7

 75
     0
147
1.0
148
0.0
149
0.0
100
AcDbLayout
  1
Model
 70
     1
 71
     0
 10
0.0
 20
0.0
 11
279.4
 21
215.9
 12
0.0
 22
0.0
 32
0.0
 14
0.0
 24
0.0
 34
0.0
 15
279.4
 25
215.9
 35
0.0
146
0.0
 13
0.0
 23
0.0
 33
0.0
 16
1.0
 26
0.0
 36
0.0
 17
0.0
 27
1.0
 37
0.0
 76
     0
330
1F
331
29
  0
MLINESTYLE
  5
18
102
{ACAD_REACTORS
330
17
102
}
330
17
100
AcDbMlineStyle
  2
Standard
 70
     0
  3

 62
   256
 51
90.0
 52
90.0
 71
     2
 49
0.5
 62
   256
  6
BYLAYER
 49
-0.5
 62
   256
  6
BYLAYER
  0
ACDBPLACEHOLDER
  5
F
102
{ACAD_REACTORS
330
E
102
}
330
E
  0
SCALE
  5
48
102
{ACAD_REACTORS
330
47
102
}
330
47
100
AcDbScale
 70
     0
300
1:1
140
1.0
141
1.0
290
     1
  0
SCALE
  5
49
102
{ACAD_REACTORS
330
47
102
}
330
47
100
AcDbScale
 70
     0
300
1:2
140
1.0
141
2.0
290
     0
  0
SCALE
  5
4A
102
{ACAD_REACTORS
330
47
102
}
330
47
100
AcDbScale
 70
     0
300
1:4
140
1.0
141
4.0
290
     0
  0
SCALE
  5
4B
102
{ACAD_REACTORS
330
47
102
}
330
47
100
AcDbScale
 70
     0
300
1:5
140
1.0
141
5.0
290
     0
  0
SCALE
  5
4C
102
{ACAD_REACTORS
330
47
102
}
330
47
100
AcDbScale
 70
     0
300
1:8
140
1.0
141
8.0
290
     0
  0
SCALE
  5
4D
102
{ACAD_REACTORS
330
47
102
}
330
47
100
AcDbScale
 70
     0
300
1:10
140
1.0
141
10.0
290
     0
  0
SCALE
  5
4E
102
{ACAD_REACTORS
330
47
102
}
330
47
100
AcDbScale
 70
     0
300
1:16
140
1.0
141
16.0
290
     0
  0
SCALE
  5
4F
102
{ACAD_REACTORS
330
47
102
}
330
47
100
AcDbScale
 70
     0
300
1:20
140
1.0
141
20.0
290
     0
  0
SCALE
  5
50
102
{ACAD_REACTORS
330
47
102
}
330
47
100
AcDbScale
 70
     0
300
1:30
140
1.0
141
30.0
290
     0
  0
SCALE
  5
51
102
{ACAD_REACTORS
330
47
102
}
330
47
100
AcDbScale
 70
     0
300
1:40
140
1.0
141
40.0
290
     0
  0
SCALE
  5
52
102
{ACAD_REACTORS
330
47
102
}
330
47
100
AcDbScale
 70
     0
300
1:50
140
1.0
141
50.0
290
     0
  0
SCALE
  5
53
102
{ACAD_REACTORS
330
47
102
}
330
47
100
AcDbScale
 70
     0
300
1:100
140
1.0
141
100.0
290
     0
  0
SCALE
  5
54
102
{ACAD_REACTORS
330
47
102
}
330
47
100
AcDbScale
 70
     0
300
2:1
140
2.0
141
1.0
290
     0
  0
SCALE
  5
55
102
{ACAD_REACTORS
330
47
102
}
330
47
100
AcDbScale
 70
     0
300
4:1
140
4.0
141
1.0
290
     0
  0
SCALE
  5
56
102
{ACAD_REACTORS
330
47
102
}
330
47
100
AcDbScale
 70
     0
300
8:1
140
8.0
141
1.0
290
     0
  0
SCALE
  5
57
102
{ACAD_REACTORS
330
47
102
}
330
47
100
AcDbScale
 70
     0
300
10:1
140
10.0
141
1.0
290
     0
  0
SCALE
  5
58
102
{ACAD_REACTORS
330
47
102
}
330
47
100
AcDbScale
 70
     0
300
100:1
140
100.0
141
1.0
290
     0
  0
SCALE
  5
59
102
{ACAD_REACTORS
330
47
102
}
330
47
100
AcDbScale
 70
     0
300
1/128" = 1'-0"
140
0.0078125
141
12.0
290
     0
  0
SCALE
  5
5A
102
{ACAD_REACTORS
330
47
102
}
330
47
100
AcDbScale
 70
     0
300
1/64" = 1'-0"
140
0.015625
141
12.0
290
     0
  0
SCALE
  5
5B
102
{ACAD_REACTORS
330
47
102
}
330
47
100
AcDbScale
 70
     0
300
1/32" = 1'-0"
140
0.03125
141
12.0
290
     0
  0
SCALE
  5
5C
102
{ACAD_REACTORS
330
47
102
}
330
47
100
AcDbScale
 70
     0
300
1/16" = 1'-0"
140
0.0625
141
12.0
290
     0
  0
SCALE
  5
5D
102
{ACAD_REACTORS
330
47
102
}
330
47
100
AcDbScale
 70
     0
300
3/32" = 1'-0"
140
0.09375
141
12.0
290
     0
  0
SCALE
  5
5E
102
{ACAD_REACTORS
330
47
102
}
330
47
100
AcDbScale
 70
     0
300
1/8" = 1'-0"
140
0.125
141
12.0
290
     0
  0
SCALE
  5
5F
102
{ACAD_REACTORS
330
47
102
}
330
47
100
AcDbScale
 70
     0
300
3/16" = 1'-0"
140
0.1875
141
12.0
290
     0
  0
SCALE
  5
60
102
{ACAD_REACTORS
330
47
102
}
330
47
100
AcDbScale
 70
     0
300
1/4" = 1'-0"
140
0.25
141
12.0
290
     0
  0
SCALE
  5
61
102
{ACAD_REACTORS
330
47
102
}
330
47
100
AcDbScale
 70
     0
300
3/8" = 1'-0"
140
0.375
141
12.0
290
     0
  0
SCALE
  5
62
102
{ACAD_REACTORS
330
47
102
}
330
47
100
AcDbScale
 70
     0
300
1/2" = 1'-0"
140
0.5
141
12.0
290
     0
  0
SCALE
  5
63
102
{ACAD_REACTORS
330
47
102
}
330
47
100
AcDbScale
 70
     0
300
3/4" = 1'-0"
140
0.75
141
12.0
290
     0
  0
SCALE
  5
64
102
{ACAD_REACTORS
330
47
102
}
330
47
100
AcDbScale
 70
     0
300
1" = 1'-0"
140
1.0
141
12.0
290
     0
  0
SCALE
  5
65
102
{ACAD_REACTORS
330
47
102
}
330
47
100
AcDbScale
 70
     0
300
1-1/2" = 1'-0"
140
1.5
141
12.0
290
     0
  0
SCALE
  5
66
102
{ACAD_REACTORS
330
47
102
}
330
47
100
AcDbScale
 70
     0
300
3" = 1'-0"
140
3.0
141
12.0
290
     0
  0
SCALE
  5
67
102
{ACAD_REACTORS
330
47
102
}
330
47
100
AcDbScale
 70
     0
300
6" = 1'-0"
140
6.0
141
12.0
290
     0
  0
SCALE
  5
68
102
{ACAD_REACTORS
330
47
102
}
330
47
100
AcDbScale
 70
     0
300
1'-0" = 1'-0"
140
12.0
141
12.0
290
     0
  0
ENDSEC
  0
EOF
